FANDOM


Angela is a 2009 song by Jarvis Cocker. It is an on-disc song in Rocksmith 1 and it is playable in Rocksmith 2014 by importing. It has 3 arrangements: Lead, Alternate Lead, and Bass. It's one of the very easiest songs in Rocksmith.

Sections Edit

Main Riff Edit

This is a repeating single-note riff that utilizes the A minor pentatonic scale. It is used in all 3 arrangements. The only slight variation is in the Bass arrangement, which is exactly the same as the lead every time except for at the beginning of the second verse where a pull-off to the open E is used once instead of picking it.

    1   2   3   4     1   2   3   4     1   2
e-|-----------------|-----------------|---------|
B-|-----------------|-----------------|---------|
G-|-----------------|-----------------|---------|
D-|-----------------|-----------------|---------|
A-|-----------------|-----------------|---3-----|
E-|-3-----5-5-----5-|-5-----5-5-----5-|-5---5-0-|

Chorus Edit

Two long held-out notes are played. That's it.

    1 2 3 4   1 2 3 4   1 2 3 4   1 2 3 4
e-|---------|---------|---------|---------|
B-|---------|---------|---------|---------|
G-|---------|---------|---------|---------|
D-|---------|---------|---------|---------|
A-|---------|---------|---------|---------|
E-|-3================-|-0================-|

Solo Edit

This is played in the middle of the song in the Lead and Alternate Lead arrangements. The only difference between the two arrangements is that the Alternate Lead uses single notes while the Lead uses dyads. This solo consists of a broken up A minor chord (strings 1-4, frets 5 & 7) and a couple of quick hammer-ons. The Bass keeps playing the main riff at this time.

    1   2   3   4     1   2   3   4     1   2
e-|---5-5-5-5-------|-----------------|---------|
B-|---5-5-5-5-------|-5-5-5-5-5-------|---------|
G-|-----------------|-5-5-5-5-5-------|---------|
D-|-----------7---7-|-----------7---7-|-567-567-|
A-|-----------------|-----------------|---------|
E-|-----------------|-----------------|---------|

Tones Edit

Bass Edit

Amp: BH-880B (Gain: 40, Bass: 4.00 db, Low-Mid: 7.00 db, Low-Mid Freq.: 220.00 hz, Mid: -1.00 db, Mid Frequency: 1200 hz, High-Mid: -2.00 db, High-Mid Freq.: 1.60 khz, Treble: -1.00 db)

Loop: MB Comp (Compression: 28, Recovery Speed: 97, Transition Band: 450 hz), 8-Band Bass EQ (30hz: 2 db, 75hz: -7 db, 185hz: -3 db, 460hz: 2 db, 1.1khz: 0 db, 2.7 khz: 6 db, 6.8 khz: -6 db, 16 khz: -1 db)

Cabinet: BH-410BC (Mic Position: Tube Cone)

Rack: Studio Compressor (Threshold: -12.50 db, Ratio: 8:1, Attack: 30 ms, Release: 90 ms)

Fuzz Edit

Pre: Compression (Compression: 25, Attack: 29 ms, Release: 110 ms), Captain Fuzzle (Gain: 100, Tone: 14)

Amp: HG-100 (Gain: 60, Bass: 80, Mid: 52, Treble: 85)

Loop: Fuzz Was He? (Gain: 90, Tone: 100)

Cabinet: TW-110C (Mic Position: Ribbon Cone)

Rack: Studio Parametric EQ (Bass: 1.00 db, Bass Freq.: 98 hz, Low-Mid: 4.00 db, Low-Mid Freq.: 1600hz, Low-Mid "Q": Wide, High-Mid: 0.00 db, High-Mid Freq.: 3.00 khz, High-Mid "Q": Wide, Treble: 1.00 db, Treble Freq.: 5.00 khz)

Lead Edit

Pre: Compression (Compression: 25, Attack: 29 ms, Release 110 ms)

Amp: AMTW-22 (Gain: 86, Bass 80, Mid: 50, Treble: 96)

Loop: Germanium Drive (Gain: 74, Tone: 94)

Cabinet: TW-110C (Mic Position: Ribbon Cone)

Rack: Studio Parametric EQ (Bass: 1.00 db, Bass Freq.: 98 hz, Low-Mid: 4.00 db, Low-Mid Freq.: 1600hz, Low-Mid "Q": Wide, High-Mid: 0.00 db, High-Mid Freq.: 3.00 khz, High-Mid "Q": Wide, Treble: 4.00 db, Treble Freq.: 5.00 khz)

Ad blocker interference detected!


Wikia is a free-to-use site that makes money from advertising. We have a modified experience for viewers using ad blockers

Wikia is not accessible if you’ve made further modifications. Remove the custom ad blocker rule(s) and the page will load as expected.